Startseite
  Archiv
  Wir
  Bilder
  Tabs
  Lyrics
  Gästebuch
  Kontakt
 



  Links
   Ministry
   Kristofs HP



http://myblog.de/overdriven

Gratis bloggen bei
myblog.de





Hier ein paar Tabs

 

Led Zeppelin - Stairway To Heaven

 

INTRO

E|-----------5--7--------7-|--8--------8--2--------2--|
B|--------5--------5-------|-----5-----------3--------|
G|-----5--------------5----|--------5-----------2-----|
D|--7-----------6----------|--5-----------4-----------|
A|-------------------------|--------------------------|
E|-------------------------|--------------------------|


E|--0-----------0---------|----------------------|
B|-----1-----1-----1------|----------------------|
G|--------2-----------2---|--0--2--2-------------|
D|--3---------------------|--0--2--2-------------|
A|------------------------|--2--0--0-------------|
E|------------------------|--3-------------------|


BRIDGE

E|----------------|
B|----------------|
G|----------------|
D|----------------|
A|---0-[7/8]-7----|
E|----------------|


Wiederhole dann die INTRO

...wenn ich weiter komme stell ich das hier rein...





Verantwortlich für die Inhalte ist der Autor. Dein kostenloses Blog bei myblog.de! Datenschutzerklärung
Werbung